ISO-10303-21;
HEADER;
/* Generated by software containing ST-Developer
 * from STEP Tools, Inc. (www.steptools.com) 
 */

FILE_DESCRIPTION(
/* description */ (''),
/* implementation_level */ '2;1');

FILE_NAME(
/* name */ 'u2d2_holder.stp',
/* time_stamp */ '2024-12-31T16:57:20-05:00',
/* author */ ('Kenny'),
/* organization */ (''),
/* preprocessor_version */ 'ST-DEVELOPER v20',
/* originating_system */ 'Autodesk Inventor 2025',
/* authorisation */ '');

FILE_SCHEMA (('AUTOMOTIVE_DESIGN { 1 0 10303 214 3 1 1 }'));
ENDSEC;

DATA;
#10=MECHANICAL_DESIGN_GEOMETRIC_PRESENTATION_REPRESENTATION('',(#13),#528);
#11=SHAPE_REPRESENTATION_RELATIONSHIP('SRR','None',#535,#12);
#12=ADVANCED_BREP_SHAPE_REPRESENTATION('',(#14),#527);
#13=STYLED_ITEM('',(#544),#14);
#14=MANIFOLD_SOLID_BREP('Solid1',#299);
#15=FACE_BOUND('',#57,.T.);
#16=FACE_BOUND('',#60,.T.);
#17=FACE_BOUND('',#63,.T.);
#18=FACE_BOUND('',#66,.T.);
#19=FACE_BOUND('',#76,.T.);
#20=FACE_BOUND('',#77,.T.);
#21=FACE_BOUND('',#78,.T.);
#22=FACE_BOUND('',#79,.T.);
#23=FACE_BOUND('',#81,.T.);
#24=FACE_BOUND('',#82,.T.);
#25=FACE_BOUND('',#83,.T.);
#26=FACE_BOUND('',#84,.T.);
#27=PLANE('',#325);
#28=PLANE('',#330);
#29=PLANE('',#335);
#30=PLANE('',#340);
#31=PLANE('',#350);
#32=PLANE('',#351);
#33=PLANE('',#352);
#34=PLANE('',#353);
#35=PLANE('',#354);
#36=PLANE('',#355);
#37=FACE_OUTER_BOUND('',#55,.T.);
#38=FACE_OUTER_BOUND('',#56,.T.);
#39=FACE_OUTER_BOUND('',#58,.T.);
#40=FACE_OUTER_BOUND('',#59,.T.);
#41=FACE_OUTER_BOUND('',#61,.T.);
#42=FACE_OUTER_BOUND('',#62,.T.);
#43=FACE_OUTER_BOUND('',#64,.T.);
#44=FACE_OUTER_BOUND('',#65,.T.);
#45=FACE_OUTER_BOUND('',#67,.T.);
#46=FACE_OUTER_BOUND('',#68,.T.);
#47=FACE_OUTER_BOUND('',#69,.T.);
#48=FACE_OUTER_BOUND('',#70,.T.);
#49=FACE_OUTER_BOUND('',#71,.T.);
#50=FACE_OUTER_BOUND('',#72,.T.);
#51=FACE_OUTER_BOUND('',#73,.T.);
#52=FACE_OUTER_BOUND('',#74,.T.);
#53=FACE_OUTER_BOUND('',#75,.T.);
#54=FACE_OUTER_BOUND('',#80,.T.);
#55=EDGE_LOOP('',(#201,#202,#203,#204));
#56=EDGE_LOOP('',(#205));
#57=EDGE_LOOP('',(#206));
#58=EDGE_LOOP('',(#207,#208,#209,#210));
#59=EDGE_LOOP('',(#211));
#60=EDGE_LOOP('',(#212));
#61=EDGE_LOOP('',(#213,#214,#215,#216));
#62=EDGE_LOOP('',(#217));
#63=EDGE_LOOP('',(#218));
#64=EDGE_LOOP('',(#219,#220,#221,#222));
#65=EDGE_LOOP('',(#223));
#66=EDGE_LOOP('',(#224));
#67=EDGE_LOOP('',(#225,#226,#227,#228));
#68=EDGE_LOOP('',(#229,#230,#231,#232));
#69=EDGE_LOOP('',(#233,#234,#235,#236));
#70=EDGE_LOOP('',(#237,#238,#239,#240));
#71=EDGE_LOOP('',(#241,#242,#243,#244));
#72=EDGE_LOOP('',(#245,#246,#247,#248));
#73=EDGE_LOOP('',(#249,#250,#251,#252));
#74=EDGE_LOOP('',(#253,#254,#255,#256));
#75=EDGE_LOOP('',(#257,#258,#259,#260));
#76=EDGE_LOOP('',(#261));
#77=EDGE_LOOP('',(#262));
#78=EDGE_LOOP('',(#263));
#79=EDGE_LOOP('',(#264));
#80=EDGE_LOOP('',(#265,#266,#267,#268));
#81=EDGE_LOOP('',(#269));
#82=EDGE_LOOP('',(#270));
#83=EDGE_LOOP('',(#271));
#84=EDGE_LOOP('',(#272));
#85=LINE('',#451,#105);
#86=LINE('',#460,#106);
#87=LINE('',#469,#107);
#88=LINE('',#478,#108);
#89=LINE('',#485,#109);
#90=LINE('',#489,#110);
#91=LINE('',#493,#111);
#92=LINE('',#497,#112);
#93=LINE('',#502,#113);
#94=LINE('',#504,#114);
#95=LINE('',#506,#115);
#96=LINE('',#507,#116);
#97=LINE('',#510,#117);
#98=LINE('',#512,#118);
#99=LINE('',#513,#119);
#100=LINE('',#516,#120);
#101=LINE('',#518,#121);
#102=LINE('',#519,#122);
#103=LINE('',#521,#123);
#104=LINE('',#522,#124);
#105=VECTOR('',#362,2.);
#106=VECTOR('',#373,2.);
#107=VECTOR('',#384,2.);
#108=VECTOR('',#395,2.);
#109=VECTOR('',#404,1.3);
#110=VECTOR('',#409,1.3);
#111=VECTOR('',#414,1.3);
#112=VECTOR('',#419,1.3);
#113=VECTOR('',#424,10.);
#114=VECTOR('',#425,10.);
#115=VECTOR('',#426,10.);
#116=VECTOR('',#427,10.);
#117=VECTOR('',#430,10.);
#118=VECTOR('',#431,10.);
#119=VECTOR('',#432,10.);
#120=VECTOR('',#435,10.);
#121=VECTOR('',#436,10.);
#122=VECTOR('',#437,10.);
#123=VECTOR('',#440,10.);
#124=VECTOR('',#441,10.);
#125=CIRCLE('',#323,2.);
#126=CIRCLE('',#324,2.);
#127=CIRCLE('',#326,1.3);
#128=CIRCLE('',#328,2.);
#129=CIRCLE('',#329,2.);
#130=CIRCLE('',#331,1.3);
#131=CIRCLE('',#333,2.);
#132=CIRCLE('',#334,2.);
#133=CIRCLE('',#336,1.3);
#134=CIRCLE('',#338,2.);
#135=CIRCLE('',#339,2.);
#136=CIRCLE('',#341,1.3);
#137=CIRCLE('',#343,1.3);
#138=CIRCLE('',#345,1.3);
#139=CIRCLE('',#347,1.3);
#140=CIRCLE('',#349,1.3);
#141=VERTEX_POINT('',#448);
#142=VERTEX_POINT('',#450);
#143=VERTEX_POINT('',#454);
#144=VERTEX_POINT('',#457);
#145=VERTEX_POINT('',#459);
#146=VERTEX_POINT('',#463);
#147=VERTEX_POINT('',#466);
#148=VERTEX_POINT('',#468);
#149=VERTEX_POINT('',#472);
#150=VERTEX_POINT('',#475);
#151=VERTEX_POINT('',#477);
#152=VERTEX_POINT('',#481);
#153=VERTEX_POINT('',#484);
#154=VERTEX_POINT('',#488);
#155=VERTEX_POINT('',#492);
#156=VERTEX_POINT('',#496);
#157=VERTEX_POINT('',#500);
#158=VERTEX_POINT('',#501);
#159=VERTEX_POINT('',#503);
#160=VERTEX_POINT('',#505);
#161=VERTEX_POINT('',#509);
#162=VERTEX_POINT('',#511);
#163=VERTEX_POINT('',#515);
#164=VERTEX_POINT('',#517);
#165=EDGE_CURVE('',#141,#141,#125,.T.);
#166=EDGE_CURVE('',#141,#142,#85,.T.);
#167=EDGE_CURVE('',#142,#142,#126,.T.);
#168=EDGE_CURVE('',#143,#143,#127,.T.);
#169=EDGE_CURVE('',#144,#144,#128,.T.);
#170=EDGE_CURVE('',#144,#145,#86,.T.);
#171=EDGE_CURVE('',#145,#145,#129,.T.);
#172=EDGE_CURVE('',#146,#146,#130,.T.);
#173=EDGE_CURVE('',#147,#147,#131,.T.);
#174=EDGE_CURVE('',#147,#148,#87,.T.);
#175=EDGE_CURVE('',#148,#148,#132,.T.);
#176=EDGE_CURVE('',#149,#149,#133,.T.);
#177=EDGE_CURVE('',#150,#150,#134,.T.);
#178=EDGE_CURVE('',#150,#151,#88,.T.);
#179=EDGE_CURVE('',#151,#151,#135,.T.);
#180=EDGE_CURVE('',#152,#152,#136,.T.);
#181=EDGE_CURVE('',#152,#153,#89,.T.);
#182=EDGE_CURVE('',#153,#153,#137,.T.);
#183=EDGE_CURVE('',#146,#154,#90,.T.);
#184=EDGE_CURVE('',#154,#154,#138,.T.);
#185=EDGE_CURVE('',#143,#155,#91,.T.);
#186=EDGE_CURVE('',#155,#155,#139,.T.);
#187=EDGE_CURVE('',#149,#156,#92,.T.);
#188=EDGE_CURVE('',#156,#156,#140,.T.);
#189=EDGE_CURVE('',#157,#158,#93,.T.);
#190=EDGE_CURVE('',#157,#159,#94,.T.);
#191=EDGE_CURVE('',#160,#159,#95,.T.);
#192=EDGE_CURVE('',#158,#160,#96,.T.);
#193=EDGE_CURVE('',#158,#161,#97,.T.);
#194=EDGE_CURVE('',#162,#160,#98,.T.);
#195=EDGE_CURVE('',#161,#162,#99,.T.);
#196=EDGE_CURVE('',#161,#163,#100,.T.);
#197=EDGE_CURVE('',#164,#162,#101,.T.);
#198=EDGE_CURVE('',#163,#164,#102,.T.);
#199=EDGE_CURVE('',#163,#157,#103,.T.);
#200=EDGE_CURVE('',#159,#164,#104,.T.);
#201=ORIENTED_EDGE('',*,*,#165,.F.);
#202=ORIENTED_EDGE('',*,*,#166,.T.);
#203=ORIENTED_EDGE('',*,*,#167,.T.);
#204=ORIENTED_EDGE('',*,*,#166,.F.);
#205=ORIENTED_EDGE('',*,*,#167,.F.);
#206=ORIENTED_EDGE('',*,*,#168,.F.);
#207=ORIENTED_EDGE('',*,*,#169,.F.);
#208=ORIENTED_EDGE('',*,*,#170,.T.);
#209=ORIENTED_EDGE('',*,*,#171,.T.);
#210=ORIENTED_EDGE('',*,*,#170,.F.);
#211=ORIENTED_EDGE('',*,*,#171,.F.);
#212=ORIENTED_EDGE('',*,*,#172,.F.);
#213=ORIENTED_EDGE('',*,*,#173,.F.);
#214=ORIENTED_EDGE('',*,*,#174,.T.);
#215=ORIENTED_EDGE('',*,*,#175,.T.);
#216=ORIENTED_EDGE('',*,*,#174,.F.);
#217=ORIENTED_EDGE('',*,*,#175,.F.);
#218=ORIENTED_EDGE('',*,*,#176,.F.);
#219=ORIENTED_EDGE('',*,*,#177,.F.);
#220=ORIENTED_EDGE('',*,*,#178,.T.);
#221=ORIENTED_EDGE('',*,*,#179,.T.);
#222=ORIENTED_EDGE('',*,*,#178,.F.);
#223=ORIENTED_EDGE('',*,*,#179,.F.);
#224=ORIENTED_EDGE('',*,*,#180,.F.);
#225=ORIENTED_EDGE('',*,*,#180,.T.);
#226=ORIENTED_EDGE('',*,*,#181,.T.);
#227=ORIENTED_EDGE('',*,*,#182,.F.);
#228=ORIENTED_EDGE('',*,*,#181,.F.);
#229=ORIENTED_EDGE('',*,*,#172,.T.);
#230=ORIENTED_EDGE('',*,*,#183,.T.);
#231=ORIENTED_EDGE('',*,*,#184,.F.);
#232=ORIENTED_EDGE('',*,*,#183,.F.);
#233=ORIENTED_EDGE('',*,*,#168,.T.);
#234=ORIENTED_EDGE('',*,*,#185,.T.);
#235=ORIENTED_EDGE('',*,*,#186,.F.);
#236=ORIENTED_EDGE('',*,*,#185,.F.);
#237=ORIENTED_EDGE('',*,*,#176,.T.);
#238=ORIENTED_EDGE('',*,*,#187,.T.);
#239=ORIENTED_EDGE('',*,*,#188,.F.);
#240=ORIENTED_EDGE('',*,*,#187,.F.);
#241=ORIENTED_EDGE('',*,*,#189,.F.);
#242=ORIENTED_EDGE('',*,*,#190,.T.);
#243=ORIENTED_EDGE('',*,*,#191,.F.);
#244=ORIENTED_EDGE('',*,*,#192,.F.);
#245=ORIENTED_EDGE('',*,*,#193,.F.);
#246=ORIENTED_EDGE('',*,*,#192,.T.);
#247=ORIENTED_EDGE('',*,*,#194,.F.);
#248=ORIENTED_EDGE('',*,*,#195,.F.);
#249=ORIENTED_EDGE('',*,*,#196,.F.);
#250=ORIENTED_EDGE('',*,*,#195,.T.);
#251=ORIENTED_EDGE('',*,*,#197,.F.);
#252=ORIENTED_EDGE('',*,*,#198,.F.);
#253=ORIENTED_EDGE('',*,*,#199,.F.);
#254=ORIENTED_EDGE('',*,*,#198,.T.);
#255=ORIENTED_EDGE('',*,*,#200,.F.);
#256=ORIENTED_EDGE('',*,*,#190,.F.);
#257=ORIENTED_EDGE('',*,*,#199,.T.);
#258=ORIENTED_EDGE('',*,*,#189,.T.);
#259=ORIENTED_EDGE('',*,*,#193,.T.);
#260=ORIENTED_EDGE('',*,*,#196,.T.);
#261=ORIENTED_EDGE('',*,*,#188,.T.);
#262=ORIENTED_EDGE('',*,*,#186,.T.);
#263=ORIENTED_EDGE('',*,*,#184,.T.);
#264=ORIENTED_EDGE('',*,*,#182,.T.);
#265=ORIENTED_EDGE('',*,*,#200,.T.);
#266=ORIENTED_EDGE('',*,*,#197,.T.);
#267=ORIENTED_EDGE('',*,*,#194,.T.);
#268=ORIENTED_EDGE('',*,*,#191,.T.);
#269=ORIENTED_EDGE('',*,*,#165,.T.);
#270=ORIENTED_EDGE('',*,*,#169,.T.);
#271=ORIENTED_EDGE('',*,*,#173,.T.);
#272=ORIENTED_EDGE('',*,*,#177,.T.);
#273=CYLINDRICAL_SURFACE('',#322,2.);
#274=CYLINDRICAL_SURFACE('',#327,2.);
#275=CYLINDRICAL_SURFACE('',#332,2.);
#276=CYLINDRICAL_SURFACE('',#337,2.);
#277=CYLINDRICAL_SURFACE('',#342,1.3);
#278=CYLINDRICAL_SURFACE('',#344,1.3);
#279=CYLINDRICAL_SURFACE('',#346,1.3);
#280=CYLINDRICAL_SURFACE('',#348,1.3);
#281=ADVANCED_FACE('',(#37),#273,.F.);
#282=ADVANCED_FACE('',(#38,#15),#27,.T.);
#283=ADVANCED_FACE('',(#39),#274,.F.);
#284=ADVANCED_FACE('',(#40,#16),#28,.T.);
#285=ADVANCED_FACE('',(#41),#275,.F.);
#286=ADVANCED_FACE('',(#42,#17),#29,.T.);
#287=ADVANCED_FACE('',(#43),#276,.F.);
#288=ADVANCED_FACE('',(#44,#18),#30,.T.);
#289=ADVANCED_FACE('',(#45),#277,.F.);
#290=ADVANCED_FACE('',(#46),#278,.F.);
#291=ADVANCED_FACE('',(#47),#279,.F.);
#292=ADVANCED_FACE('',(#48),#280,.F.);
#293=ADVANCED_FACE('',(#49),#31,.T.);
#294=ADVANCED_FACE('',(#50),#32,.T.);
#295=ADVANCED_FACE('',(#51),#33,.T.);
#296=ADVANCED_FACE('',(#52),#34,.T.);
#297=ADVANCED_FACE('',(#53,#19,#20,#21,#22),#35,.T.);
#298=ADVANCED_FACE('',(#54,#23,#24,#25,#26),#36,.F.);
#299=CLOSED_SHELL('',(#281,#282,#283,#284,#285,#286,#287,#288,#289,#290,
#291,#292,#293,#294,#295,#296,#297,#298));
#300=DERIVED_UNIT_ELEMENT(#303,1.);
#301=DERIVED_UNIT_ELEMENT(#530,-3.);
#302=DIMENSIONAL_EXPONENTS(0.,1.,0.,0.,0.,0.,0.);
#303=(
CONVERSION_BASED_UNIT('gram',#305)
MASS_UNIT()
NAMED_UNIT(#302)
);
#304=(
MASS_UNIT()
NAMED_UNIT(*)
SI_UNIT(.KILO.,.GRAM.)
);
#305=MASS_MEASURE_WITH_UNIT(MASS_MEASURE(0.001),#304);
#306=DERIVED_UNIT((#300,#301));
#307=MEASURE_REPRESENTATION_ITEM('density measure',
POSITIVE_RATIO_MEASURE(1.),#306);
#308=PROPERTY_DEFINITION_REPRESENTATION(#313,#310);
#309=PROPERTY_DEFINITION_REPRESENTATION(#314,#311);
#310=REPRESENTATION('material name',(#312),#527);
#311=REPRESENTATION('density',(#307),#527);
#312=DESCRIPTIVE_REPRESENTATION_ITEM('Generic','Generic');
#313=PROPERTY_DEFINITION('material property','material name',#537);
#314=PROPERTY_DEFINITION('material property','density of part',#537);
#315=DATE_TIME_ROLE('creation_date');
#316=APPLIED_DATE_AND_TIME_ASSIGNMENT(#317,#315,(#537));
#317=DATE_AND_TIME(#318,#319);
#318=CALENDAR_DATE(2024,1,1);
#319=LOCAL_TIME(0,0,0.,#320);
#320=COORDINATED_UNIVERSAL_TIME_OFFSET(0,0,.BEHIND.);
#321=AXIS2_PLACEMENT_3D('',#446,#356,#357);
#322=AXIS2_PLACEMENT_3D('',#447,#358,#359);
#323=AXIS2_PLACEMENT_3D('',#449,#360,#361);
#324=AXIS2_PLACEMENT_3D('',#452,#363,#364);
#325=AXIS2_PLACEMENT_3D('',#453,#365,#366);
#326=AXIS2_PLACEMENT_3D('',#455,#367,#368);
#327=AXIS2_PLACEMENT_3D('',#456,#369,#370);
#328=AXIS2_PLACEMENT_3D('',#458,#371,#372);
#329=AXIS2_PLACEMENT_3D('',#461,#374,#375);
#330=AXIS2_PLACEMENT_3D('',#462,#376,#377);
#331=AXIS2_PLACEMENT_3D('',#464,#378,#379);
#332=AXIS2_PLACEMENT_3D('',#465,#380,#381);
#333=AXIS2_PLACEMENT_3D('',#467,#382,#383);
#334=AXIS2_PLACEMENT_3D('',#470,#385,#386);
#335=AXIS2_PLACEMENT_3D('',#471,#387,#388);
#336=AXIS2_PLACEMENT_3D('',#473,#389,#390);
#337=AXIS2_PLACEMENT_3D('',#474,#391,#392);
#338=AXIS2_PLACEMENT_3D('',#476,#393,#394);
#339=AXIS2_PLACEMENT_3D('',#479,#396,#397);
#340=AXIS2_PLACEMENT_3D('',#480,#398,#399);
#341=AXIS2_PLACEMENT_3D('',#482,#400,#401);
#342=AXIS2_PLACEMENT_3D('',#483,#402,#403);
#343=AXIS2_PLACEMENT_3D('',#486,#405,#406);
#344=AXIS2_PLACEMENT_3D('',#487,#407,#408);
#345=AXIS2_PLACEMENT_3D('',#490,#410,#411);
#346=AXIS2_PLACEMENT_3D('',#491,#412,#413);
#347=AXIS2_PLACEMENT_3D('',#494,#415,#416);
#348=AXIS2_PLACEMENT_3D('',#495,#417,#418);
#349=AXIS2_PLACEMENT_3D('',#498,#420,#421);
#350=AXIS2_PLACEMENT_3D('',#499,#422,#423);
#351=AXIS2_PLACEMENT_3D('',#508,#428,#429);
#352=AXIS2_PLACEMENT_3D('',#514,#433,#434);
#353=AXIS2_PLACEMENT_3D('',#520,#438,#439);
#354=AXIS2_PLACEMENT_3D('',#523,#442,#443);
#355=AXIS2_PLACEMENT_3D('',#524,#444,#445);
#356=DIRECTION('axis',(0.,0.,1.));
#357=DIRECTION('refdir',(1.,0.,0.));
#358=DIRECTION('center_axis',(0.,1.,0.));
#359=DIRECTION('ref_axis',(1.,0.,0.));
#360=DIRECTION('center_axis',(0.,1.,0.));
#361=DIRECTION('ref_axis',(1.,0.,0.));
#362=DIRECTION('',(0.,1.,0.));
#363=DIRECTION('center_axis',(0.,1.,0.));
#364=DIRECTION('ref_axis',(1.,0.,0.));
#365=DIRECTION('center_axis',(0.,-1.,0.));
#366=DIRECTION('ref_axis',(0.,0.,-1.));
#367=DIRECTION('center_axis',(0.,-1.,0.));
#368=DIRECTION('ref_axis',(1.,0.,0.));
#369=DIRECTION('center_axis',(0.,1.,0.));
#370=DIRECTION('ref_axis',(1.,0.,0.));
#371=DIRECTION('center_axis',(0.,1.,0.));
#372=DIRECTION('ref_axis',(1.,0.,0.));
#373=DIRECTION('',(0.,1.,0.));
#374=DIRECTION('center_axis',(0.,1.,0.));
#375=DIRECTION('ref_axis',(1.,0.,0.));
#376=DIRECTION('center_axis',(0.,-1.,0.));
#377=DIRECTION('ref_axis',(0.,0.,-1.));
#378=DIRECTION('center_axis',(0.,-1.,0.));
#379=DIRECTION('ref_axis',(1.,0.,0.));
#380=DIRECTION('center_axis',(0.,1.,0.));
#381=DIRECTION('ref_axis',(1.,0.,0.));
#382=DIRECTION('center_axis',(0.,1.,0.));
#383=DIRECTION('ref_axis',(1.,0.,0.));
#384=DIRECTION('',(0.,1.,0.));
#385=DIRECTION('center_axis',(0.,1.,0.));
#386=DIRECTION('ref_axis',(1.,0.,0.));
#387=DIRECTION('center_axis',(0.,-1.,0.));
#388=DIRECTION('ref_axis',(0.,0.,-1.));
#389=DIRECTION('center_axis',(0.,-1.,0.));
#390=DIRECTION('ref_axis',(1.,0.,0.));
#391=DIRECTION('center_axis',(0.,1.,0.));
#392=DIRECTION('ref_axis',(1.,0.,0.));
#393=DIRECTION('center_axis',(0.,1.,0.));
#394=DIRECTION('ref_axis',(1.,0.,0.));
#395=DIRECTION('',(0.,1.,0.));
#396=DIRECTION('center_axis',(0.,1.,0.));
#397=DIRECTION('ref_axis',(1.,0.,0.));
#398=DIRECTION('center_axis',(0.,-1.,0.));
#399=DIRECTION('ref_axis',(0.,0.,-1.));
#400=DIRECTION('center_axis',(0.,-1.,0.));
#401=DIRECTION('ref_axis',(1.,0.,0.));
#402=DIRECTION('center_axis',(0.,-1.,0.));
#403=DIRECTION('ref_axis',(1.,0.,0.));
#404=DIRECTION('',(0.,1.,0.));
#405=DIRECTION('center_axis',(0.,-1.,0.));
#406=DIRECTION('ref_axis',(1.,0.,0.));
#407=DIRECTION('center_axis',(0.,-1.,0.));
#408=DIRECTION('ref_axis',(1.,0.,0.));
#409=DIRECTION('',(0.,1.,0.));
#410=DIRECTION('center_axis',(0.,-1.,0.));
#411=DIRECTION('ref_axis',(1.,0.,0.));
#412=DIRECTION('center_axis',(0.,-1.,0.));
#413=DIRECTION('ref_axis',(1.,0.,0.));
#414=DIRECTION('',(0.,1.,0.));
#415=DIRECTION('center_axis',(0.,-1.,0.));
#416=DIRECTION('ref_axis',(1.,0.,0.));
#417=DIRECTION('center_axis',(0.,-1.,0.));
#418=DIRECTION('ref_axis',(1.,0.,0.));
#419=DIRECTION('',(0.,1.,0.));
#420=DIRECTION('center_axis',(0.,-1.,0.));
#421=DIRECTION('ref_axis',(1.,0.,0.));
#422=DIRECTION('center_axis',(0.,0.,-1.));
#423=DIRECTION('ref_axis',(1.,0.,0.));
#424=DIRECTION('',(-1.,0.,0.));
#425=DIRECTION('',(0.,-1.,0.));
#426=DIRECTION('',(1.,0.,0.));
#427=DIRECTION('',(0.,-1.,0.));
#428=DIRECTION('center_axis',(-1.,0.,4.21119078306094E-16));
#429=DIRECTION('ref_axis',(-4.21119078306094E-16,0.,-1.));
#430=DIRECTION('',(4.21119078306094E-16,0.,1.));
#431=DIRECTION('',(-4.21119078306094E-16,0.,-1.));
#432=DIRECTION('',(0.,-1.,0.));
#433=DIRECTION('center_axis',(1.2335811384724E-16,0.,1.));
#434=DIRECTION('ref_axis',(-1.,0.,1.2335811384724E-16));
#435=DIRECTION('',(1.,0.,-1.2335811384724E-16));
#436=DIRECTION('',(-1.,0.,1.2335811384724E-16));
#437=DIRECTION('',(0.,-1.,0.));
#438=DIRECTION('center_axis',(1.,0.,-3.0626842058625E-16));
#439=DIRECTION('ref_axis',(3.0626842058625E-16,0.,1.));
#440=DIRECTION('',(-3.0626842058625E-16,0.,-1.));
#441=DIRECTION('',(3.0626842058625E-16,0.,1.));
#442=DIRECTION('center_axis',(0.,1.,0.));
#443=DIRECTION('ref_axis',(0.,0.,1.));
#444=DIRECTION('center_axis',(0.,1.,0.));
#445=DIRECTION('ref_axis',(0.,0.,1.));
#446=CARTESIAN_POINT('',(0.,0.,0.));
#447=CARTESIAN_POINT('Origin',(7.03846038494413,-3.5,-33.2865051842276));
#448=CARTESIAN_POINT('',(5.03846038494413,-3.5,-33.2865051842276));
#449=CARTESIAN_POINT('Origin',(7.03846038494413,-3.5,-33.2865051842276));
#450=CARTESIAN_POINT('',(5.03846038494413,-1.5,-33.2865051842276));
#451=CARTESIAN_POINT('',(5.03846038494413,-3.5,-33.2865051842276));
#452=CARTESIAN_POINT('Origin',(7.03846038494413,-1.5,-33.2865051842276));
#453=CARTESIAN_POINT('Origin',(7.03846038494413,-1.5,-33.2865051842276));
#454=CARTESIAN_POINT('',(5.73846038494413,-1.5,-33.2865051842276));
#455=CARTESIAN_POINT('Origin',(7.03846038494413,-1.5,-33.2865051842276));
#456=CARTESIAN_POINT('Origin',(-2.96153961505587,-3.5,-33.2865051842276));
#457=CARTESIAN_POINT('',(-4.96153961505587,-3.5,-33.2865051842276));
#458=CARTESIAN_POINT('Origin',(-2.96153961505587,-3.5,-33.2865051842276));
#459=CARTESIAN_POINT('',(-4.96153961505587,-1.5,-33.2865051842276));
#460=CARTESIAN_POINT('',(-4.96153961505587,-3.5,-33.2865051842276));
#461=CARTESIAN_POINT('Origin',(-2.96153961505587,-1.5,-33.2865051842276));
#462=CARTESIAN_POINT('Origin',(-2.96153961505587,-1.5,-33.2865051842276));
#463=CARTESIAN_POINT('',(-4.26153961505587,-1.5,-33.2865051842276));
#464=CARTESIAN_POINT('Origin',(-2.96153961505587,-1.5,-33.2865051842276));
#465=CARTESIAN_POINT('Origin',(-2.96153961505587,-3.5,-9.28650518422759));
#466=CARTESIAN_POINT('',(-4.96153961505587,-3.5,-9.28650518422759));
#467=CARTESIAN_POINT('Origin',(-2.96153961505587,-3.5,-9.28650518422759));
#468=CARTESIAN_POINT('',(-4.96153961505587,-1.5,-9.28650518422759));
#469=CARTESIAN_POINT('',(-4.96153961505587,-3.5,-9.28650518422759));
#470=CARTESIAN_POINT('Origin',(-2.96153961505587,-1.5,-9.28650518422759));
#471=CARTESIAN_POINT('Origin',(-2.96153961505587,-1.5,-9.28650518422759));
#472=CARTESIAN_POINT('',(-4.26153961505587,-1.5,-9.28650518422759));
#473=CARTESIAN_POINT('Origin',(-2.96153961505587,-1.5,-9.28650518422759));
#474=CARTESIAN_POINT('Origin',(7.03846038494413,-3.5,-9.28650518422759));
#475=CARTESIAN_POINT('',(5.03846038494413,-3.5,-9.28650518422759));
#476=CARTESIAN_POINT('Origin',(7.03846038494413,-3.5,-9.28650518422759));
#477=CARTESIAN_POINT('',(5.03846038494413,-1.5,-9.28650518422759));
#478=CARTESIAN_POINT('',(5.03846038494413,-3.5,-9.28650518422759));
#479=CARTESIAN_POINT('Origin',(7.03846038494413,-1.5,-9.28650518422759));
#480=CARTESIAN_POINT('Origin',(7.03846038494413,-1.5,-9.28650518422759));
#481=CARTESIAN_POINT('',(5.73846038494413,-1.5,-9.28650518422759));
#482=CARTESIAN_POINT('Origin',(7.03846038494413,-1.5,-9.28650518422759));
#483=CARTESIAN_POINT('Origin',(7.03846038494413,0.,-9.28650518422759));
#484=CARTESIAN_POINT('',(5.73846038494413,0.,-9.28650518422759));
#485=CARTESIAN_POINT('',(5.73846038494413,0.,-9.28650518422759));
#486=CARTESIAN_POINT('Origin',(7.03846038494413,0.,-9.28650518422759));
#487=CARTESIAN_POINT('Origin',(-2.96153961505587,0.,-33.2865051842276));
#488=CARTESIAN_POINT('',(-4.26153961505587,0.,-33.2865051842276));
#489=CARTESIAN_POINT('',(-4.26153961505587,0.,-33.2865051842276));
#490=CARTESIAN_POINT('Origin',(-2.96153961505587,0.,-33.2865051842276));
#491=CARTESIAN_POINT('Origin',(7.03846038494413,0.,-33.2865051842276));
#492=CARTESIAN_POINT('',(5.73846038494413,0.,-33.2865051842276));
#493=CARTESIAN_POINT('',(5.73846038494413,0.,-33.2865051842276));
#494=CARTESIAN_POINT('Origin',(7.03846038494413,0.,-33.2865051842276));
#495=CARTESIAN_POINT('Origin',(-2.96153961505587,0.,-9.28650518422759));
#496=CARTESIAN_POINT('',(-4.26153961505587,0.,-9.28650518422759));
#497=CARTESIAN_POINT('',(-4.26153961505587,0.,-9.28650518422759));
#498=CARTESIAN_POINT('Origin',(-2.96153961505587,0.,-9.28650518422759));
#499=CARTESIAN_POINT('Origin',(-6.96153961505588,0.,-35.7865051842276));
#500=CARTESIAN_POINT('',(11.0384603849441,0.,-35.7865051842276));
#501=CARTESIAN_POINT('',(-6.96153961505588,0.,-35.7865051842276));
#502=CARTESIAN_POINT('',(11.0384603849441,0.,-35.7865051842276));
#503=CARTESIAN_POINT('',(11.0384603849441,-3.5,-35.7865051842276));
#504=CARTESIAN_POINT('',(11.0384603849441,0.,-35.7865051842276));
#505=CARTESIAN_POINT('',(-6.96153961505588,-3.5,-35.7865051842276));
#506=CARTESIAN_POINT('',(11.0384603849441,-3.5,-35.7865051842276));
#507=CARTESIAN_POINT('',(-6.96153961505588,0.,-35.7865051842276));
#508=CARTESIAN_POINT('Origin',(-6.96153961505587,0.,-6.78650518422759));
#509=CARTESIAN_POINT('',(-6.96153961505587,0.,-6.78650518422759));
#510=CARTESIAN_POINT('',(-6.96153961505588,0.,-35.7865051842276));
#511=CARTESIAN_POINT('',(-6.96153961505587,-3.5,-6.78650518422759));
#512=CARTESIAN_POINT('',(-6.96153961505588,-3.5,-35.7865051842276));
#513=CARTESIAN_POINT('',(-6.96153961505587,0.,-6.78650518422759));
#514=CARTESIAN_POINT('Origin',(11.0384603849441,0.,-6.78650518422759));
#515=CARTESIAN_POINT('',(11.0384603849441,0.,-6.78650518422759));
#516=CARTESIAN_POINT('',(-6.96153961505587,0.,-6.78650518422759));
#517=CARTESIAN_POINT('',(11.0384603849441,-3.5,-6.78650518422759));
#518=CARTESIAN_POINT('',(-6.96153961505587,-3.5,-6.78650518422759));
#519=CARTESIAN_POINT('',(11.0384603849441,0.,-6.78650518422759));
#520=CARTESIAN_POINT('Origin',(11.0384603849441,0.,-35.7865051842276));
#521=CARTESIAN_POINT('',(11.0384603849441,0.,-6.78650518422759));
#522=CARTESIAN_POINT('',(11.0384603849441,-3.5,-6.78650518422759));
#523=CARTESIAN_POINT('Origin',(2.03846038494413,0.,-21.2865051842276));
#524=CARTESIAN_POINT('Origin',(2.03846038494413,-3.5,-21.2865051842276));
#525=UNCERTAINTY_MEASURE_WITH_UNIT(LENGTH_MEASURE(0.01),#529,
'DISTANCE_ACCURACY_VALUE',
'Maximum model space distance between geometric entities at asserted c
onnectivities');
#526=UNCERTAINTY_MEASURE_WITH_UNIT(LENGTH_MEASURE(0.01),#529,
'DISTANCE_ACCURACY_VALUE',
'Maximum model space distance between geometric entities at asserted c
onnectivities');
#527=(
GEOMETRIC_REPRESENTATION_CONTEXT(3)
GLOBAL_UNCERTAINTY_ASSIGNED_CONTEXT((#525))
GLOBAL_UNIT_ASSIGNED_CONTEXT((#529,#531,#532))
REPRESENTATION_CONTEXT('','3D')
);
#528=(
GEOMETRIC_REPRESENTATION_CONTEXT(3)
GLOBAL_UNCERTAINTY_ASSIGNED_CONTEXT((#526))
GLOBAL_UNIT_ASSIGNED_CONTEXT((#529,#531,#532))
REPRESENTATION_CONTEXT('','3D')
);
#529=(
LENGTH_UNIT()
NAMED_UNIT(*)
SI_UNIT(.MILLI.,.METRE.)
);
#530=(
LENGTH_UNIT()
NAMED_UNIT(*)
SI_UNIT(.CENTI.,.METRE.)
);
#531=(
NAMED_UNIT(*)
PLANE_ANGLE_UNIT()
SI_UNIT($,.RADIAN.)
);
#532=(
NAMED_UNIT(*)
SI_UNIT($,.STERADIAN.)
SOLID_ANGLE_UNIT()
);
#533=SHAPE_DEFINITION_REPRESENTATION(#534,#535);
#534=PRODUCT_DEFINITION_SHAPE('',$,#537);
#535=SHAPE_REPRESENTATION('',(#321),#527);
#536=PRODUCT_DEFINITION_CONTEXT('part definition',#541,'design');
#537=PRODUCT_DEFINITION('palm_u2d2_mount','palm_u2d2_mount',#538,#536);
#538=PRODUCT_DEFINITION_FORMATION('',$,#543);
#539=PRODUCT_RELATED_PRODUCT_CATEGORY('palm_u2d2_mount',
'palm_u2d2_mount',(#543));
#540=APPLICATION_PROTOCOL_DEFINITION('international standard',
'automotive_design',2009,#541);
#541=APPLICATION_CONTEXT(
'Core Data for Automotive Mechanical Design Process');
#542=PRODUCT_CONTEXT('part definition',#541,'mechanical');
#543=PRODUCT('palm_u2d2_mount','palm_u2d2_mount',$,(#542));
#544=PRESENTATION_STYLE_ASSIGNMENT((#545));
#545=SURFACE_STYLE_USAGE(.BOTH.,#548);
#546=SURFACE_STYLE_RENDERING_WITH_PROPERTIES($,#552,(#547));
#547=SURFACE_STYLE_TRANSPARENT(0.);
#548=SURFACE_SIDE_STYLE('',(#549,#546));
#549=SURFACE_STYLE_FILL_AREA(#550);
#550=FILL_AREA_STYLE('',(#551));
#551=FILL_AREA_STYLE_COLOUR('',#552);
#552=COLOUR_RGB('',0.749019607843137,0.749019607843137,0.749019607843137);
ENDSEC;
END-ISO-10303-21;
