ISO-10303-21;
HEADER;
/* Generated by software containing ST-Developer
 * from STEP Tools, Inc. (www.steptools.com) 
 */

FILE_DESCRIPTION(
/* description */ (''),
/* implementation_level */ '2;1');

FILE_NAME(
/* name */ 'on_motor_axle.stp',
/* time_stamp */ '2025-01-01T15:51:36-05:00',
/* author */ ('Kenny'),
/* organization */ (''),
/* preprocessor_version */ 'ST-DEVELOPER v20',
/* originating_system */ 'Autodesk Inventor 2025',
/* authorisation */ '');

FILE_SCHEMA (('AUTOMOTIVE_DESIGN { 1 0 10303 214 3 1 1 }'));
ENDSEC;

DATA;
#10=MECHANICAL_DESIGN_GEOMETRIC_PRESENTATION_REPRESENTATION('',(#16),#273);
#11=GEOMETRICALLY_BOUNDED_WIREFRAME_SHAPE_REPRESENTATION('',(#12),#272);
#12=GEOMETRIC_CURVE_SET('Sketch5',(#269));
#13=SHAPE_REPRESENTATION_RELATIONSHIP('SRR','None',#280,#15);
#14=SHAPE_REPRESENTATION_RELATIONSHIP('SRR','None',#280,#11);
#15=ADVANCED_BREP_SHAPE_REPRESENTATION('',(#17),#272);
#16=STYLED_ITEM('',(#290),#17);
#17=MANIFOLD_SOLID_BREP('Solid1',#143);
#18=FACE_BOUND('',#40,.T.);
#19=FACE_BOUND('',#44,.T.);
#20=FACE_BOUND('',#46,.T.);
#21=FACE_BOUND('',#49,.T.);
#22=FACE_BOUND('',#52,.T.);
#23=PLANE('',#169);
#24=PLANE('',#177);
#25=PLANE('',#178);
#26=PLANE('',#183);
#27=PLANE('',#185);
#28=FACE_OUTER_BOUND('',#38,.T.);
#29=FACE_OUTER_BOUND('',#39,.T.);
#30=FACE_OUTER_BOUND('',#41,.T.);
#31=FACE_OUTER_BOUND('',#42,.T.);
#32=FACE_OUTER_BOUND('',#43,.T.);
#33=FACE_OUTER_BOUND('',#45,.T.);
#34=FACE_OUTER_BOUND('',#47,.T.);
#35=FACE_OUTER_BOUND('',#48,.T.);
#36=FACE_OUTER_BOUND('',#50,.T.);
#37=FACE_OUTER_BOUND('',#51,.T.);
#38=EDGE_LOOP('',(#98,#99,#100,#101));
#39=EDGE_LOOP('',(#102));
#40=EDGE_LOOP('',(#103));
#41=EDGE_LOOP('',(#104,#105,#106,#107));
#42=EDGE_LOOP('',(#108,#109,#110,#111));
#43=EDGE_LOOP('',(#112));
#44=EDGE_LOOP('',(#113));
#45=EDGE_LOOP('',(#114));
#46=EDGE_LOOP('',(#115));
#47=EDGE_LOOP('',(#116,#117,#118,#119));
#48=EDGE_LOOP('',(#120));
#49=EDGE_LOOP('',(#121));
#50=EDGE_LOOP('',(#122,#123,#124,#125));
#51=EDGE_LOOP('',(#126));
#52=EDGE_LOOP('',(#127));
#53=LINE('',#238,#58);
#54=LINE('',#247,#59);
#55=LINE('',#253,#60);
#56=LINE('',#264,#61);
#57=LINE('',#267,#62);
#58=VECTOR('',#192,2.375);
#59=VECTOR('',#203,1.35);
#60=VECTOR('',#210,2.65);
#61=VECTOR('',#225,3.825);
#62=VECTOR('',#230,2.825);
#63=CIRCLE('',#167,2.375);
#64=CIRCLE('',#168,2.375);
#65=CIRCLE('',#170,2.825);
#66=CIRCLE('',#172,1.35);
#67=CIRCLE('',#173,1.35);
#68=CIRCLE('',#175,2.65);
#69=CIRCLE('',#176,2.65);
#70=CIRCLE('',#179,3.825);
#71=CIRCLE('',#180,2.825);
#72=CIRCLE('',#182,3.825);
#73=VERTEX_POINT('',#235);
#74=VERTEX_POINT('',#237);
#75=VERTEX_POINT('',#241);
#76=VERTEX_POINT('',#244);
#77=VERTEX_POINT('',#246);
#78=VERTEX_POINT('',#250);
#79=VERTEX_POINT('',#252);
#80=VERTEX_POINT('',#257);
#81=VERTEX_POINT('',#259);
#82=VERTEX_POINT('',#262);
#83=EDGE_CURVE('',#73,#73,#63,.T.);
#84=EDGE_CURVE('',#73,#74,#53,.T.);
#85=EDGE_CURVE('',#74,#74,#64,.T.);
#86=EDGE_CURVE('',#75,#75,#65,.T.);
#87=EDGE_CURVE('',#76,#76,#66,.T.);
#88=EDGE_CURVE('',#76,#77,#54,.T.);
#89=EDGE_CURVE('',#77,#77,#67,.T.);
#90=EDGE_CURVE('',#78,#78,#68,.T.);
#91=EDGE_CURVE('',#78,#79,#55,.T.);
#92=EDGE_CURVE('',#79,#79,#69,.T.);
#93=EDGE_CURVE('',#80,#80,#70,.T.);
#94=EDGE_CURVE('',#81,#81,#71,.T.);
#95=EDGE_CURVE('',#82,#82,#72,.T.);
#96=EDGE_CURVE('',#82,#80,#56,.T.);
#97=EDGE_CURVE('',#81,#75,#57,.T.);
#98=ORIENTED_EDGE('',*,*,#83,.F.);
#99=ORIENTED_EDGE('',*,*,#84,.T.);
#100=ORIENTED_EDGE('',*,*,#85,.T.);
#101=ORIENTED_EDGE('',*,*,#84,.F.);
#102=ORIENTED_EDGE('',*,*,#86,.F.);
#103=ORIENTED_EDGE('',*,*,#85,.F.);
#104=ORIENTED_EDGE('',*,*,#87,.F.);
#105=ORIENTED_EDGE('',*,*,#88,.T.);
#106=ORIENTED_EDGE('',*,*,#89,.F.);
#107=ORIENTED_EDGE('',*,*,#88,.F.);
#108=ORIENTED_EDGE('',*,*,#90,.F.);
#109=ORIENTED_EDGE('',*,*,#91,.T.);
#110=ORIENTED_EDGE('',*,*,#92,.T.);
#111=ORIENTED_EDGE('',*,*,#91,.F.);
#112=ORIENTED_EDGE('',*,*,#92,.F.);
#113=ORIENTED_EDGE('',*,*,#89,.T.);
#114=ORIENTED_EDGE('',*,*,#93,.F.);
#115=ORIENTED_EDGE('',*,*,#94,.T.);
#116=ORIENTED_EDGE('',*,*,#95,.F.);
#117=ORIENTED_EDGE('',*,*,#96,.T.);
#118=ORIENTED_EDGE('',*,*,#93,.T.);
#119=ORIENTED_EDGE('',*,*,#96,.F.);
#120=ORIENTED_EDGE('',*,*,#95,.T.);
#121=ORIENTED_EDGE('',*,*,#90,.T.);
#122=ORIENTED_EDGE('',*,*,#94,.F.);
#123=ORIENTED_EDGE('',*,*,#97,.T.);
#124=ORIENTED_EDGE('',*,*,#86,.T.);
#125=ORIENTED_EDGE('',*,*,#97,.F.);
#126=ORIENTED_EDGE('',*,*,#83,.T.);
#127=ORIENTED_EDGE('',*,*,#87,.T.);
#128=CYLINDRICAL_SURFACE('',#166,2.375);
#129=CYLINDRICAL_SURFACE('',#171,1.35);
#130=CYLINDRICAL_SURFACE('',#174,2.65);
#131=CYLINDRICAL_SURFACE('',#181,3.825);
#132=CYLINDRICAL_SURFACE('',#184,2.825);
#133=ADVANCED_FACE('',(#28),#128,.T.);
#134=ADVANCED_FACE('',(#29,#18),#23,.T.);
#135=ADVANCED_FACE('',(#30),#129,.F.);
#136=ADVANCED_FACE('',(#31),#130,.F.);
#137=ADVANCED_FACE('',(#32,#19),#24,.T.);
#138=ADVANCED_FACE('',(#33,#20),#25,.F.);
#139=ADVANCED_FACE('',(#34),#131,.T.);
#140=ADVANCED_FACE('',(#35,#21),#26,.T.);
#141=ADVANCED_FACE('',(#36),#132,.T.);
#142=ADVANCED_FACE('',(#37,#22),#27,.F.);
#143=CLOSED_SHELL('',(#133,#134,#135,#136,#137,#138,#139,#140,#141,#142));
#144=DERIVED_UNIT_ELEMENT(#147,1.);
#145=DERIVED_UNIT_ELEMENT(#275,-3.);
#146=DIMENSIONAL_EXPONENTS(0.,1.,0.,0.,0.,0.,0.);
#147=(
CONVERSION_BASED_UNIT('gram',#149)
MASS_UNIT()
NAMED_UNIT(#146)
);
#148=(
MASS_UNIT()
NAMED_UNIT(*)
SI_UNIT(.KILO.,.GRAM.)
);
#149=MASS_MEASURE_WITH_UNIT(MASS_MEASURE(0.001),#148);
#150=DERIVED_UNIT((#144,#145));
#151=MEASURE_REPRESENTATION_ITEM('density measure',
POSITIVE_RATIO_MEASURE(1.),#150);
#152=PROPERTY_DEFINITION_REPRESENTATION(#157,#154);
#153=PROPERTY_DEFINITION_REPRESENTATION(#158,#155);
#154=REPRESENTATION('material name',(#156),#272);
#155=REPRESENTATION('density',(#151),#272);
#156=DESCRIPTIVE_REPRESENTATION_ITEM('Generic','Generic');
#157=PROPERTY_DEFINITION('material property','material name',#282);
#158=PROPERTY_DEFINITION('material property','density of part',#282);
#159=DATE_TIME_ROLE('creation_date');
#160=APPLIED_DATE_AND_TIME_ASSIGNMENT(#161,#159,(#282));
#161=DATE_AND_TIME(#162,#163);
#162=CALENDAR_DATE(2023,28,11);
#163=LOCAL_TIME(0,0,0.,#164);
#164=COORDINATED_UNIVERSAL_TIME_OFFSET(0,0,.BEHIND.);
#165=AXIS2_PLACEMENT_3D('',#233,#186,#187);
#166=AXIS2_PLACEMENT_3D('',#234,#188,#189);
#167=AXIS2_PLACEMENT_3D('',#236,#190,#191);
#168=AXIS2_PLACEMENT_3D('',#239,#193,#194);
#169=AXIS2_PLACEMENT_3D('',#240,#195,#196);
#170=AXIS2_PLACEMENT_3D('',#242,#197,#198);
#171=AXIS2_PLACEMENT_3D('',#243,#199,#200);
#172=AXIS2_PLACEMENT_3D('',#245,#201,#202);
#173=AXIS2_PLACEMENT_3D('',#248,#204,#205);
#174=AXIS2_PLACEMENT_3D('',#249,#206,#207);
#175=AXIS2_PLACEMENT_3D('',#251,#208,#209);
#176=AXIS2_PLACEMENT_3D('',#254,#211,#212);
#177=AXIS2_PLACEMENT_3D('',#255,#213,#214);
#178=AXIS2_PLACEMENT_3D('',#256,#215,#216);
#179=AXIS2_PLACEMENT_3D('',#258,#217,#218);
#180=AXIS2_PLACEMENT_3D('',#260,#219,#220);
#181=AXIS2_PLACEMENT_3D('',#261,#221,#222);
#182=AXIS2_PLACEMENT_3D('',#263,#223,#224);
#183=AXIS2_PLACEMENT_3D('',#265,#226,#227);
#184=AXIS2_PLACEMENT_3D('',#266,#228,#229);
#185=AXIS2_PLACEMENT_3D('',#268,#231,#232);
#186=DIRECTION('axis',(0.,0.,1.));
#187=DIRECTION('refdir',(1.,0.,0.));
#188=DIRECTION('center_axis',(0.,1.,0.));
#189=DIRECTION('ref_axis',(-1.,0.,0.));
#190=DIRECTION('center_axis',(0.,-1.,0.));
#191=DIRECTION('ref_axis',(-1.,0.,0.));
#192=DIRECTION('',(0.,1.,0.));
#193=DIRECTION('center_axis',(0.,-1.,0.));
#194=DIRECTION('ref_axis',(-1.,0.,0.));
#195=DIRECTION('center_axis',(0.,-1.,0.));
#196=DIRECTION('ref_axis',(0.,0.,-1.));
#197=DIRECTION('center_axis',(0.,1.,0.));
#198=DIRECTION('ref_axis',(-1.,0.,0.));
#199=DIRECTION('center_axis',(0.,1.,0.));
#200=DIRECTION('ref_axis',(1.,0.,0.));
#201=DIRECTION('center_axis',(0.,1.,0.));
#202=DIRECTION('ref_axis',(1.,0.,0.));
#203=DIRECTION('',(0.,1.,0.));
#204=DIRECTION('center_axis',(0.,-1.,0.));
#205=DIRECTION('ref_axis',(1.,0.,0.));
#206=DIRECTION('center_axis',(0.,-1.,0.));
#207=DIRECTION('ref_axis',(1.,0.,0.));
#208=DIRECTION('center_axis',(0.,-1.,0.));
#209=DIRECTION('ref_axis',(1.,0.,0.));
#210=DIRECTION('',(0.,-1.,0.));
#211=DIRECTION('center_axis',(0.,-1.,0.));
#212=DIRECTION('ref_axis',(1.,0.,0.));
#213=DIRECTION('center_axis',(0.,1.,0.));
#214=DIRECTION('ref_axis',(0.,0.,1.));
#215=DIRECTION('center_axis',(0.,1.,0.));
#216=DIRECTION('ref_axis',(0.,0.,1.));
#217=DIRECTION('center_axis',(0.,1.,0.));
#218=DIRECTION('ref_axis',(1.,0.,0.));
#219=DIRECTION('center_axis',(0.,1.,0.));
#220=DIRECTION('ref_axis',(-1.,0.,0.));
#221=DIRECTION('center_axis',(0.,1.,0.));
#222=DIRECTION('ref_axis',(1.,0.,0.));
#223=DIRECTION('center_axis',(0.,1.,0.));
#224=DIRECTION('ref_axis',(1.,0.,0.));
#225=DIRECTION('',(0.,-1.,0.));
#226=DIRECTION('center_axis',(0.,1.,0.));
#227=DIRECTION('ref_axis',(0.,0.,1.));
#228=DIRECTION('center_axis',(0.,1.,0.));
#229=DIRECTION('ref_axis',(-1.,0.,0.));
#230=DIRECTION('',(0.,-1.,0.));
#231=DIRECTION('center_axis',(0.,1.,0.));
#232=DIRECTION('ref_axis',(0.,0.,1.));
#233=CARTESIAN_POINT('',(0.,0.,0.));
#234=CARTESIAN_POINT('Origin',(0.,0.,0.));
#235=CARTESIAN_POINT('',(2.375,0.,2.90853614797496E-16));
#236=CARTESIAN_POINT('Origin',(0.,0.,0.));
#237=CARTESIAN_POINT('',(2.375,2.7,2.90853614797496E-16));
#238=CARTESIAN_POINT('',(2.375,0.,-2.90853614797496E-16));
#239=CARTESIAN_POINT('Origin',(0.,2.7,0.));
#240=CARTESIAN_POINT('Origin',(0.,2.7,0.));
#241=CARTESIAN_POINT('',(2.825,2.7,0.));
#242=CARTESIAN_POINT('Origin',(0.,2.7,0.));
#243=CARTESIAN_POINT('Origin',(0.,0.,0.));
#244=CARTESIAN_POINT('',(-1.35,0.,1.65327317884893E-16));
#245=CARTESIAN_POINT('Origin',(0.,0.,0.));
#246=CARTESIAN_POINT('',(-1.35,11.9,-1.65327317884893E-16));
#247=CARTESIAN_POINT('',(-1.35,0.,1.65327317884893E-16));
#248=CARTESIAN_POINT('Origin',(0.,11.9,0.));
#249=CARTESIAN_POINT('Origin',(0.,14.,0.));
#250=CARTESIAN_POINT('',(-2.65,14.,-3.24531401774049E-16));
#251=CARTESIAN_POINT('Origin',(0.,14.,0.));
#252=CARTESIAN_POINT('',(-2.65,11.9,-3.24531401774049E-16));
#253=CARTESIAN_POINT('',(-2.65,14.,-3.24531401774049E-16));
#254=CARTESIAN_POINT('Origin',(0.,11.9,0.));
#255=CARTESIAN_POINT('Origin',(0.,11.9,0.));
#256=CARTESIAN_POINT('Origin',(0.,9.,0.));
#257=CARTESIAN_POINT('',(-3.825,9.,4.68427400673863E-16));
#258=CARTESIAN_POINT('Origin',(0.,9.,0.));
#259=CARTESIAN_POINT('',(2.825,9.,-3.45962720759127E-16));
#260=CARTESIAN_POINT('Origin',(0.,9.,0.));
#261=CARTESIAN_POINT('Origin',(0.,9.,0.));
#262=CARTESIAN_POINT('',(-3.825,14.,4.68427400673863E-16));
#263=CARTESIAN_POINT('Origin',(0.,14.,0.));
#264=CARTESIAN_POINT('',(-3.825,9.,4.68427400673863E-16));
#265=CARTESIAN_POINT('Origin',(0.,14.,0.));
#266=CARTESIAN_POINT('Origin',(0.,0.,0.));
#267=CARTESIAN_POINT('',(2.825,0.,-3.45962720759127E-16));
#268=CARTESIAN_POINT('Origin',(0.,0.,0.));
#269=CARTESIAN_POINT('',(0.,0.,0.));
#270=UNCERTAINTY_MEASURE_WITH_UNIT(LENGTH_MEASURE(0.01),#274,
'DISTANCE_ACCURACY_VALUE',
'Maximum model space distance between geometric entities at asserted c
onnectivities');
#271=UNCERTAINTY_MEASURE_WITH_UNIT(LENGTH_MEASURE(0.01),#274,
'DISTANCE_ACCURACY_VALUE',
'Maximum model space distance between geometric entities at asserted c
onnectivities');
#272=(
GEOMETRIC_REPRESENTATION_CONTEXT(3)
GLOBAL_UNCERTAINTY_ASSIGNED_CONTEXT((#270))
GLOBAL_UNIT_ASSIGNED_CONTEXT((#274,#276,#277))
REPRESENTATION_CONTEXT('','3D')
);
#273=(
GEOMETRIC_REPRESENTATION_CONTEXT(3)
GLOBAL_UNCERTAINTY_ASSIGNED_CONTEXT((#271))
GLOBAL_UNIT_ASSIGNED_CONTEXT((#274,#276,#277))
REPRESENTATION_CONTEXT('','3D')
);
#274=(
LENGTH_UNIT()
NAMED_UNIT(*)
SI_UNIT(.MILLI.,.METRE.)
);
#275=(
LENGTH_UNIT()
NAMED_UNIT(*)
SI_UNIT(.CENTI.,.METRE.)
);
#276=(
NAMED_UNIT(*)
PLANE_ANGLE_UNIT()
SI_UNIT($,.RADIAN.)
);
#277=(
NAMED_UNIT(*)
SI_UNIT($,.STERADIAN.)
SOLID_ANGLE_UNIT()
);
#278=SHAPE_DEFINITION_REPRESENTATION(#279,#280);
#279=PRODUCT_DEFINITION_SHAPE('',$,#282);
#280=SHAPE_REPRESENTATION('',(#165),#272);
#281=PRODUCT_DEFINITION_CONTEXT('part definition',#286,'design');
#282=PRODUCT_DEFINITION('on_motor_axle','on_motor_axle',#283,#281);
#283=PRODUCT_DEFINITION_FORMATION('',$,#288);
#284=PRODUCT_RELATED_PRODUCT_CATEGORY('on_motor_axle','on_motor_axle',(#288));
#285=APPLICATION_PROTOCOL_DEFINITION('international standard',
'automotive_design',2009,#286);
#286=APPLICATION_CONTEXT(
'Core Data for Automotive Mechanical Design Process');
#287=PRODUCT_CONTEXT('part definition',#286,'mechanical');
#288=PRODUCT('on_motor_axle','on_motor_axle',$,(#287));
#289=PRESENTATION_STYLE_ASSIGNMENT((#292));
#290=PRESENTATION_STYLE_ASSIGNMENT((#293));
#291=PRESENTATION_STYLE_ASSIGNMENT((#294));
#292=SURFACE_STYLE_USAGE(.BOTH.,#299);
#293=SURFACE_STYLE_USAGE(.BOTH.,#300);
#294=SURFACE_STYLE_USAGE(.BOTH.,#301);
#295=SURFACE_STYLE_RENDERING_WITH_PROPERTIES($,#311,(#297));
#296=SURFACE_STYLE_RENDERING_WITH_PROPERTIES($,#312,(#298));
#297=SURFACE_STYLE_TRANSPARENT(0.);
#298=SURFACE_STYLE_TRANSPARENT(0.);
#299=SURFACE_SIDE_STYLE('',(#302,#295));
#300=SURFACE_SIDE_STYLE('',(#303,#296));
#301=SURFACE_SIDE_STYLE('',(#304));
#302=SURFACE_STYLE_FILL_AREA(#305);
#303=SURFACE_STYLE_FILL_AREA(#306);
#304=SURFACE_STYLE_FILL_AREA(#307);
#305=FILL_AREA_STYLE('',(#308));
#306=FILL_AREA_STYLE('',(#309));
#307=FILL_AREA_STYLE('',(#310));
#308=FILL_AREA_STYLE_COLOUR('',#311);
#309=FILL_AREA_STYLE_COLOUR('',#312);
#310=FILL_AREA_STYLE_COLOUR('',#313);
#311=COLOUR_RGB('',0.749019607843137,0.749019607843137,0.749019607843137);
#312=COLOUR_RGB('',1.,0.,0.);
#313=COLOUR_RGB('',1.,1.,0.);
ENDSEC;
END-ISO-10303-21;
